Ani DiFranco and Utah Philips

Korea (Bass Tab)

This one's really simple.

G|--4-----2-----------|
D|----5-----0---2-----|
A|--------------------|
E|-----------------0--|

-or-

G|--4-----------------|
D|----5---7-----------|
A|----------5---7-----|
E|-----------------0--|